Last added comments:
ОШИБКУ НУЖНО ПОПРАВИТЬ во всех выложенных аккордов САНСАРЫ Басты
вторая часть припева играется на тех же аккордах, что и первая. Ошибка в середине 2-ой части: поменялись местами C и Am
Правильно:
D Am
Моих детей и голосами их детей.
C
Нас просто меняют местами,
И.Растеряев
August 15, 2017 6:21 PM
Watch his film Crazy Heart
August 14, 2017 2:11 AM
(INTRO)
E|:-----------------------------|
B|:-----------------------------|
G|:--------4-4------------------|
D|:--2-----------5-4-4-4-4-5-4--|
A|:-----------------------------|
E|:-----------------------------|

(FINAL)
E|:------------0--2-3-2---------|
В|:---------0-------------------|
G|:------0----------------------|
D|:--2--------------------------|
A|:-----------------------------|
E|:-----------------------------|
August 13, 2017 3:03 PM
Capo III
August 12, 2017 10:50 AM
Zhoryu

ZiS
copied online
edited by Andrew Allsaint
August 9, 2017 2:15 PM
original key is B
August 8, 2017 3:40 PM
It'z a meaningful zong that'z why i love thiz zong!!!