На моей луне

Artist: Мертвые дельфины (Russian)
User: Олег Сивов
Duration: 130 seconds
Delay: 12 seconds
Chord names: Not defined
Abusive:
Comment: -

URL

Uploaded:
June 29, 2015, 12:20 PM

Text

    Dm (V)        C (III)      Bb       Dm (V)          Gm
1------------------------------------------------------------
2-------6------------5--------3----------6----------------3--
3-----7---7---7------5--------3--------7---7------------3----
4---7-------7------5---5----3---3/---7-------7--------5------
5-5--------------3--------1--------5----------------5--------
6----------------------------------------------5p3-----------

     Dm (V)         C (III)      Bb      F        Gm  (вниз с 6-й)
1-------0-------------3---------1-------1----3------------------
2-------6-------------5---5-----3-------1----3------------------
3-----7---7---7-----5---5-----3---3---2---2/-3------------------
4---7-------7-----5---------3-------3--------5------------------
5-5-------------3----------------------------5------------------
6--------------------------------------------3------------------

  Dm (V)          C (III)
(1)Снег сможет меня согреть,
           Bb
Ты помоги ему
       Dm (V)    Gm
Душу мою отпеть здесь некому будет.
  Dm (V)           C (III)
Сном белым к тебе приду,
              Bb
В мысли твои войду
   F        Gm
Там для себя приют найду.

     Dm        C         Bb        F
1-1----1----0----0----1----1----1----1-----------
2-3----3----1----1----3----3----1----1-----------
3---2----2----0----0----3----3----2----2---------

     Dm        C         Bb        Gm  (вниз с 6-й)
1-1----1----0----0----1----1----3-------------
2-3----3----1----1----3----3----3-------------
3---2----2----0----0----3----3--3-------------
4-------------------------------5-------------
5-------------------------------5-------------
6-------------------------------3-------------

     Dm
Припев:
На моей луне
     C
Я всегда один,
     Bb
Разведу костер,
     F
Посижу в тени.
     Dm
На моей луне
     C
Пропадаю я.
     Bb
Сам себе король,
       Gm
Сам себе судья.

(2)Свет, слабым лучом в окно
Сколько ему дано
Мне уже все равно,
Но голос надежды
Вновь машет своим крылом,
Падая вниз дождем
И я опять вхожу в твой дом.

Припев (2)

     Dm        C         Bb        F
1-1----1----0----0----1----1----1----1-----------
2-3----3----1----1----3----3----1----1-----------
3---2----2----0----0----3----3----2----2---------

     Dm        C         Bb        Gm
1-1----1----0----0----1----1----3----3-----------
2-3----3----1----1----3----3----3----3-----------
3---2----2----0----0----3----3----3----3---------

Припев (1)

(2)Блеск этих волшебных глаз
Околдовал меня
Будто бы в первый раз я их понимаю

Для последней части 3-его куплета перебор такой:

     Dm         C
1-1----1----1----1----0----0----0----0-----------
2-3----3----3----3----1----1----1----1-----------
3---2----2----2----2----0----0----0----0---------

     Bb         Gm   (вниз с 6-й)
1-1----1----1----1----3-------------
2-3----3----3----3----3-------------
3---3----3----3----3--3-------------
4---------------------5-------------
5---------------------5-------------
6---------------------3-------------
Смерть, я обниму рукой
И только с ней одной
Я поделюсь своей мечтой.

Припев (2)
Припев (1)

На моей луне
Я всегда один
Разведу костер, посижу в тени

Далее без гитары:
На моей луне-е-е
Я сам себе коро-о-ль…

Comments