Renegades

Artist: X Ambassadors (English)
User: Владимир vk.com/leo_king_one
Duration: 130 seconds
Delay: 12 seconds
Chord names: Default
Abusive:
Comment:
Tuning: E Standard
No capo used.
Chords: Hm D A G
Hm: (bar the second fret)
e|-2-
B|-3-
G|-4-
D|-4-
A|-2-
E|-2-

URL

Updated last time:
Владимир vk.com/leo_king_one,
May 19, 2016 11:31 AM

Text

Intro:
e|------------|--------------|--------------|--------------|
B|---3------0-|----3-------0-|----2---------|----3-------0-|
G|------------|--------------|------------2-|--------------|
D|------------|-0-------0----|--------------|--------------|
A|-2-----2----|--------------|-0-------0----|--------------|
E|------------|--------------|--------------|-3-------3----|

e|------------|--------------|--------------|--------------|
B|---3------0-|----3-------0-|----2---------|----3-------0-|
G|------------|--------------|------------2-|--------------|
D|------------|-0-------0----|--------------|--------------|
A|-2-----2----|--------------|-0-------0----|--------------|
E|------------|--------------|--------------|-3-------3----|

 Bm          D           A           G
Run away, away with me
 Bm          D           A           G
Lost souls and revelry
 Bm          D                  A           G
Running wild and running free
 Bm          D           A           G
Two kids, you and me                       And I said

 Bm                  D        A                  G
Hey, hey hey hey hey! Living like we're Renegades
             Hm            D        A               G
Hey hey hey, hey hey hey! Living like we're Renegades
 Bm                  D        A          G
Renegades 
 Bm                  D        A          G
Renegades

 Bm          D           A           G
Long live the pioneers

 Bm          D           A           G
Rebels and mutineers
 Bm           D             A           G
Go forth and have no fear
 Bm             D           A           G
Come close and lend an ear                   And I said

 Bm                  D        A                  G
Hey, hey hey hey hey! Living like we're Renegades
             Hm            D        A               G
Hey hey hey, hey hey hey! Living like we're Renegades
 Bm                  D        A          G
Renegades 
 Bm                  D        A          G
Renegades

Interlude (same as intro):
e|------------|--------------|--------------|--------------|
B|---3------0-|----3-------0-|----2---------|----3-------0-|
G|------------|--------------|------------2-|--------------|
D|------------|-0-------0----|--------------|--------------|
A|-1-----1----|--------------|-0-------0----|--------------|
E|------------|--------------|--------------|-3-------3----|

 Bm          D             
All hail the underdogs
 A           G
All hail the new kids
 Bm          D  
All hail the outlaws
 A              G
Spielbergs and Kubricks

 Bm             D         
It's our time to make a move
 A              G
It's our time to make amends
 Bm             D                  A              G
It's our time to break the rules,      let's begin. And I said

 Bm                  D        A                  G
Hey, hey hey hey hey! Living like we're Renegades
             Hm            D        A               G
Hey hey hey, hey hey hey! Living like we're Renegades
 Bm                  D        A          G
Renegades 
 Bm                  D        A          G
Renegades

Comments

October 11, 2015 6:29 PM
Хотите оригинал ставьте D, A, G, в барэ. Это хорошо видно на оф. видео, (где играют на акустике в подворотне).
Хотя имхо не хуже звучит Am, C, G, F - с капо на втором ладу.