My Heroine (tab)

Artist: Silverstein (English)
User: Darwin Solana
Duration: 130 seconds
Delay: 12 seconds
Chord names: Not defined
Abusive:
Comment:
Yehey!! hahah Tab Nanaman!

URL

Uploaded:
June 29, 2016 8:21 AM

Text

My Heroine by: Silverstein

contact facebook: darwinsolana@yahoo.com
contact #: 0950 473 5946

(standard  E  tuning) guitar tab

intro:
e-------------------------------------------------------|
b-------------------------------------------------------|
g---------0-------------0-------------0-----0-----0-----|
d----9---------0------0------0------0-----0-----0-----0-| x2
a------10---10-----10-----10------9-----9-----9-----9---|
E--0-------------8-------------10-----------------------|

stanza:
e-------------------------------------------------------|
b-------------------------------------------------------|
g---------0-------------0-------------0-----0-----0-----|
d----9---------0------0------0------0-----0-----0-----0-| x2
a------10---10-----10-----10------9-----9-----9-----9---|
E--0-------------8-------------10-----------------------|

e--------------------------------------------------------|
b--------------------------------------------------------|
g---------0-------------0------------0-------------0-----|
d-------0------0------0-----0---9---------0------0-----0-|
a----10-----10------9-----9-------10---10------9-----9---|
E--8-------------10-----------0-------------10-----------|

                                PM-------------     PM---------------
e---------------------------------------------------------------------|
b---------------------------------------------------------------------|
g---------0-------------0---------------------------------------------|
d-------0------0------0-----0---9--9--9--9--9--9----------------------|
a----10-----10------9-----9-----10-10-10-10-10-10---9--9--9--9--9--9--|
E--8-------------10-------------0--0--0--0--0--0----10-10-10-10-10-10-|

refrain: (Sream Voice Part)
e--------------------------------------------------|
b--------------------------------------------------|
g--------------5-5-5-5-5---7-7-7-7-7---------------|
d--2-2-2-2-2---5-5-5-5-5---7-7-7-7-7---------------|
a--2-2-2-2-2---3-3-3-3-3---5-5-5-5-5---------------|
E--0-0-0-0-0---------------------------3-2-5-2-3-2-|

e----------------------------------------------------|
b----------------------------------------------------|
g--------------5-5-5-5-5---7-7-7-7-7-----------------|
d--2-2-2-2-2---5-5-5-5-5---7-7-7-7-7-----------------|
a--2-2-2-2-2---3-3-3-3-3---5-5-5-5-5-----------------|
E--0-0-0-0-0---------------------------3-3-3-2-2-3-2-|

chorus:
e------------------------------------|
b--5-5-5-5-5---7-7-7-7-7---8-8-8-8-8-|
g--x-x-x-x-x---x-x-x-x-x---x-x-x-x-x-|
d--5-5-5-5-5---7-7-7-7-7---9-9-9-9-9-|
a--3-3-3-3-3---5-5-5-5-5---7-7-7-7-7-|
E------------------------------------|

e-----------------------------------------------------|
b--5-5-5-5-5---7-7-7-7-7---8-8-8-8-8---12-12-12-12-12-|
g--x-x-x-x-x---x-x-x-x-x---x-x-x-x-x---x--x--x--x--x--|
d--5-5-5-5-5---7-7-7-7-7---9-9-9-9-9---12-12-12-12-12-|
a--3-3-3-3-3---5-5-5-5-5---7-7-7-7-7---10-10-10-10-10-|
E-----------------------------------------------------|

e------------------------------------|
b--5-5-5-5-5---7-7-7-7-7---8-8-8-8-8-|
g--x-x-x-x-x---x-x-x-x-x---x-x-x-x-x-|
d--5-5-5-5-5---7-7-7-7-7---9-9-9-9-9-|
a--3-3-3-3-3---5-5-5-5-5---7-7-7-7-7-|
E------------------------------------|

                 PM------------
e--------------------------------|
b--5-5-5-5-5---7-7-7-7-7-7-7-7-7-|
g--x-x-x-x-x---x-x-x-x-x-x-x-x-x-|
d--5-5-5-5-5---7-7-7-7-7-7-7-7-7-|
a--3-3-3-3-3---5-5-5-5-5-5-5-5-5-|
E--------------------------------|

refrain: (Sream Voice Part)
e--------------------------------------------------|
b--------------------------------------------------|
g--------------5-5-5-5-5---7-7-7-7-7---------------|
d--2-2-2-2-2---5-5-5-5-5---7-7-7-7-7---------------|
a--2-2-2-2-2---3-3-3-3-3---5-5-5-5-5---------------|
E--0-0-0-0-0---------------------------3-2-5-2-3-2-|

e----------------------------------------------------|
b----------------------------------------------------|
g--------------5-5-5-5-5---7-7-7-7-7-----------------|
d--2-2-2-2-2---5-5-5-5-5---7-7-7-7-7-----------------|
a--2-2-2-2-2---3-3-3-3-3---5-5-5-5-5-----------------|
E--0-0-0-0-0---------------------------3-3-3-2-2-3-2-|

chorus:
e------------------------------------|
b--5-5-5-5-5---7-7-7-7-7---8-8-8-8-8-|
g--x-x-x-x-x---x-x-x-x-x---x-x-x-x-x-|
d--5-5-5-5-5---7-7-7-7-7---9-9-9-9-9-|
a--3-3-3-3-3---5-5-5-5-5---7-7-7-7-7-|
E------------------------------------|

e-----------------------------------------------------|
b--5-5-5-5-5---7-7-7-7-7---8-8-8-8-8---12-12-12-12-12-|
g--x-x-x-x-x---x-x-x-x-x---x-x-x-x-x---x--x--x--x--x--|
d--5-5-5-5-5---7-7-7-7-7---9-9-9-9-9---12-12-12-12-12-|
a--3-3-3-3-3---5-5-5-5-5---7-7-7-7-7---10-10-10-10-10-|
E-----------------------------------------------------|

e------------------------------------|
b--5-5-5-5-5---7-7-7-7-7---8-8-8-8-8-|
g--x-x-x-x-x---x-x-x-x-x---x-x-x-x-x-|
d--5-5-5-5-5---7-7-7-7-7---9-9-9-9-9-|
a--3-3-3-3-3---5-5-5-5-5---7-7-7-7-7-|
E------------------------------------|

                 PM------------
e-------------------------------------|
b--5-5-5-5-5---7-7-7-7-7-7-7-7-7---7-7|
g--x-x-x-x-x---x-x-x-x-x-x-x-x-x---x-x|
d--5-5-5-5-5---7-7-7-7-7-7-7-7-7---7-7|
a--3-3-3-3-3---5-5-5-5-5-5-5-5-5---5-5|
E-------------------------------------|

bridge:
e--------------------------------------------------------------|
b--------------4-4-4-4-4---8-8-8-8---7-7-7-7---5-5-5-5-5---7-7-|
g--4-4-4-4-4---x-x-x-x-x---x-x-x-x---x-x-x-x---x-x-x-x-x---x-x-|
d--x-x-x-x-x---4-4-4-4-4---9-9-9-9---7-7-7-7---5-5-5-5-5---7-7-|
a--5-5-5-5-5---2-2-2-2-2---7-7-7-7---5-5-5-5---3-3-3-3-3---5-5-|
E--3-3-3-3-3---------------------------------------------------|

e------------------------------------------|
b--------------4-4-4-4-4-----8-----7-----5-|
g--4-4-4-4-4---x-x-x-x-x-----x-----x-----x-|
d--x-x-x-x-x---4-4-4-4-4-----9-----7-----5-|
a--5-5-5-5-5---2-2-2-2-2-----7-----5-----3-|
E--3-3-3-3-3-------------------------------|

back to stanza:
then chorus

last part tab
(scream voice part)

e------------------------------------------------------|
b------------------------------------------------------|
g--------------5-5-5-5-5---7-7-7-7-7-------------------|
d--2-2-2-2-2---5-5-5-5-5---7-7-7-7-7-----------------2-|
a--2-2-2-2-2---3-3-3-3-3---5-5-5-5-5-----------------2-|
E--0-0-0-0-0---------------------------3-2-5-2-3-2---0-|


Comments