138 - Jehovah Is Your Name

Artist: Watchtower (English)
User: Darwin Solana
Duration: 130 seconds
Delay: 12 seconds
Chord names: Not defined
Abusive:
Comment:
tnx jah. :)

URL

Updated last time:
Darwin Solana,
May 6, 2017 11:59 AM

Text

kingdom Song
138 - Jehovah Is Your Name

tabbed by: darwin solana
contact facebook: Darwin Aguasa Solana

contact #: 0948 373 4979

capo fret 3

intro:
e------2--2--2--0--2----------------------|
b------3--------------------3--2--2--2----|
g--2---2-----------------2-----2--------4-|
d------0-----------0--0--------4----------|
a------------------------------4----------|
E------------------------------2----------|

e-----------0-----------------------|
b--2-----------3--3--3--2---0--3--3-|
g--------2-----4------------0-----2-|
d-----4--------4------------0-----4-|
a--------------2------------2-----5-|
E--2------------------------3-------|

verse:
e-----2--2--2--0--2----------------------|
b-----3--------------------3--2--2--2----|
g--2--2-----------------2-----2--------4-|
d-----0-----------0--0--------4----------|
a-----------------------------4----------|
E-----------------------------2----------|

e-----------0----------------------|
b--2-----------3--3--3--2--------3-|
g--------2-----4-----------4-------|
d-----4--------4-------------------|
a--------------2--------------2----|
E--2-------------------------------|

e----------------------|
b----------------------|
g--------0--------0----|
d-----0-----0--4-----0-|
a----------------------|
E--3-------------------|

e-----2--2--2--0--2-----5------------------|
b-----3----------------------------2-------|
g--2--2--------------2-----------2---2---2-|
d-----0-----------0------------4-------4---|
a----------------------------4-------------|
E--------------------------2---------------|

e--2--------0-------------------------------|
b--------------3--------2--0-----------0----|
g--------4-----------2-----------0----------|
d-----4-----------2-----------0-----0-----0-|
a--2-----------0----------------------------|
E--------------------------3----------------|

e--------3--3--3--2--3-------------------------------|
b-----0--0-----------------------0--------------0----|
g--------0-----------------0--------0-----0--------0-|
d--------2--------------2-----2--------2-----2-------|
a--------2-------------------------------------------|
E--2-----0-----------0-------------------------------|

e--2--0--0--0-----0-----3----------------------|
b-----1--------3--------------------0----------|
g-----0--------------0-----------0-----0-----0-|
d-----2-----------------------0-----------0----|
a-----3-----------3--------2-------------------|
E----------------------------------------------|

e--2--0--0--0-----0-----------------------------|
b-----2--------3------------------2-----------2-|
g-----2--------------2---------2-----------2----|
d-----2---------------------2-----------2-------|
a-----0-----------0-----------------------------|
E------------------------3-----------2----------|

e--2--------3--3--------5--5----------|
b--------3-----------------3-----3--2-|
g-----2--------------0----------------|
d--0--------------0-----------2-------|
a--------------------------0--------0-|
E--------------3----------------------|

chorus:
e-----------------------------0----|
b--------------3-------------------|
g--2--2-----2-----2--2-----2-----2-|
d--------4--------------2----------|
a-----5--------------0-------------|
E----------------------------------|

e--2-----0----------------------------|
b--------------3-----2--0-----------0-|
g-----4-----4-----2--------------0----|
d-----------------------------0-------|
a--2-----------0----------------------|
E--------------------------3----------|

e-------------0-----------------2-------|
b--0----0-----------0-----0-----------3-|
g----2-----0-----------2-----0----------|
d---------------------------------------|
a-------------------------2--------2----|
E--2----0--------0----------------------|

e--5------3--3-----2--0-----------0--0-|
b------0-----------------------0-----0-|
g----0----------0-----------0--------0-|
d------------------------------------2-|
a--3---------3-----------3-----------3-|
E--------------------------------------|


e--0--2--3--------2--0-----2--0----|
b--------------0--------3----------|
g-----------0----------------------|
d----------------------------------|
a----------------------------------|
E--------0-----------0-----0-----0-|

e--------------------------0--0-------------|
b--0--2--------3--3-----------------0--2----|
g-----------0-----------4-------------------|
d--------2-----------4-----------2----------|
a-----0-----------2-----------0-----------0-|
E-------------------------------------------|

e-----------------------------2-------------|
b--------------3--------------------------3-|
g--2--2-----2-----2--2-----2-----------4----|
d--------4--------------4-----------4-------|
a-----5--------------------------2----------|
E--------------------2----------------------|

e--5--------3--3-----2--0-----------|
b--------0--------------2------3--3-|
g-----0-----------0-----0---------2-|
d-----------------------2---------4-|
a-----------------------0---------5-|
E--0-----------0--------------------|


Comments