Officialy Missing You

Artist: Sungha Jung (English)
User: Darwin Solana
Duration: 130 seconds
Delay: 12 seconds
Chord names: Not defined
Abusive:
Comment: -

URL

Uploaded:
July 1, 2016 12:09 PM

Text

Officialy Missing You by: Sungha Jung

tabbed by: darwinsolana@yahoo.com
contact #: 0950 473 5946

(standard  E  tuning)
e----------------3----------------------2----|
b-----3--x--3----------------2--x--4---------|
g-----4--x--4----------------2--x--2---------|
d--------------------------------------------|
a----------------------------------2-------2-|
E--3--------3-------3-----2-----x------------|

e---------------------------------------------|
b-----7h-8-x--8-------8-------6--x--5---------|
g-------------7---------------7--x--4-------4-|
d-----7h-9-x-------9-------0-----x-------5----|
a---------------------------------------------|
E--0-------x--0---------------------3---------|

e-------------------3-------------------------|
b-----5--x--5---------------7h-8-x--8-------8-|
g-----4--x--4---------------7----x--7---------|
d----------------5-----------------------9----|
a--3-----x------------------------------------|
E------------------------7-------x--7---------|

e----------0-------0----x--3--3-----------------|
b----1--x--1-------1----x--3--3-----------------|
g----0--x-------0-------x-----------------0h--2-|
d--------------------------0--0----0h--2--------|
a--0----x--0------------------------------------|
E-----------------------------------------------|

e-----------------------------------------------------|
b--0--------------------------0---1--0----------------|
g--------2g0----------0------(2)--------2--2-----0----|
d-----0------------0----------------------------------|
a----------x----------x--------------x-----2--2--x--2-|
E--3-------x--3-------x--3----2------x-----------x----|

e------------------------------------------------------|
b-----0--(0)--3--3g0---------------1p--0-------------0-|
g-----0--(0)------------0-----------------2-------0----|
d--------------------2----------0--------------0-------|
a---------x-------------x--------------x----------x----|
E--0------x--------0----x--0-----------x--3-------x----|

e---------------------------------------------------|
b--------------------------------0--x--0------------|
g--2-----x--0--------0---2----------x--0-------0--0-|
d--2---2-x-------2--(2)---------------------0-------|
a--3-----x--3--------x--------2-----x--2-------x----|
E--------------------x-------------------------x----|

e------------------------------------------------------|
b-----------------------------1--1p--0---------------0-|
g-----2p-0------------0-------2--2------2--2p--0-------|
d----------2-------2----------0--0---------------------|
a--0-------x--0-------x--0------------------------x----|
E----------x----------x---------------------------x----|

e------------------------------------------------------|
b-----------------------------0------------------------|
g--2------------------0--2----------2-----2-----(0)--0-|
d------0-------0h--2-------------0-----------1---------|
a--------x------------x-------------x--0--2------x-----|
E--3-----x--3---------x-------2-----x------------x-----|

e---------------------------------------------------------|
b-----------------------------0--1p--0--1--1g0------------|
g-----2p-0------------0-------2--------------------(0)--0-|
d----------2-------2----------0-----------------0---------|
a----------x----------x--------------x--------------x-----|
E--0-------x--0-------x--0-----------x-------3------x-----|

e--------------------------------------------------|
b-------------------------------0--x--0------------|
g--2----x--0--------0---2----------x--0-------0--0-|
d--2--2-x-------2--(2)---------------------0-------|
a--3----x--3--------x--------2-----x--2-------x----|
E-------------------x-------------------------x----|

e---------------------------------------------------|
b-----------------------------1--1p--0--------------|
g-----2p-0------------0-------2--2------2--2p--0----|
d----------2-------2----------0--0------------------|
a--0-------x--0-------x--0------------------------x-|
E----------x----------x---------------------------x-|

e--2-----(2)--------2----------2--2--2--2--2--3--3g5--3-|
b--3-----(3)--------3----------2--2-----4---------------|
g----------------4--------------------------------------|
d-------------------------------------------------------|
a---------x------------x-------------x-------------x----|
E--3--3---x---3--------x--0----2-----x-------------x----|

e------5--x----------3-------7--8--7--5--5-----5g7------|
b------------0-------0-------5-----5-----0-------0--7g8-|
g------------0----0----------5-----------0--0-----------|
d----------------------------0--------------------------|
a---------x----------x-------------x-------------x------|
E--0------x--0-------x--0----------x-----3-------x------|

e-----------7------------------------------------(7)--7-----|
b--------x--8--------8-------7--8--8g10--8-------(8)----10s-|
g-----9--x-----9--9----------7--7--------7------------------|
d---------------------------------------------9-------------|
a--------------------x----------------x-----------x---------|
E--8-----x--8--------x--0----7--------x--7--------x---------|

e-------------5h-7p-5-----5-------8--8p--7------------------|
b--8----------5-----------5-------8--8---------------8h--10-|
g----------------------5----------------------7h--9---------|
d-------5-x-----------------------0--0----------------------|
a--0--0---x-0-------------x--0------------------------------|
E-------------------------x---------------------------------|

e---7---------------------7--7---------------7---------------------|
b----------10g8-------------------10----10-----10-10-------(10)----|
g----------------------0---------------------------8--------(8)----|
d-------------------------------------------------------7----------|
a--10--10-----x--10-------x--------9--9----x-----------------x-----|
E-------------x-----------x----------------x---------7-------x---0-|

e--7--8--7-----------------------------------------7--10-|
b--8-----8--10--10--8----------8------------8--10------0-|
g---------------------------------7---------0------------|
d------------------------------0-------------------------|
a--------x-------------x-------------x--0--10------x-----|
E--0-----x-------0-----x--0----------x-------------x-----|

e--7------------------(7)-----------7-x-------------7--10-|
b--8----8-----8-------(8)------10---7-x-----8--10---x-----|
g-------------9----9------------------------7--(7)--x-----|
d-------------------------------------------9-------x-----|
a---------x------------x----------------------------------|
E--8--8---x-8----------x---0----7-----x--7----------x-----|

e--7---------5----------7----7-------x---7-----------7-|
b------------5---------------7----10-x-8----10----8----|
g------5-x---5----5----------8-----8-x-------8----8----|
d------------------------------------------------------|
a--0-----x-0---------x---------------------------------|
E--------------------x-------7--7----x-------7----7----|

e--7--8--7-----7--------------------7--x----7-------7----|
b--8-----------8--10--(8)--10-------7--x--7g8-------8----|
g------------------9-----------------------------7-----0-|
d--------------------------------------------------------|
a--------x-------------x----------------------------x----|
E--8-----x--8----------x---------7-----x----7-------x----|

e--7--7--7--10--8--7--(7)-------5----------------5--7--7g10-|
b--8-----8---------7--(7)-------5--8----------8-------------|
g--7-------------------------------6--(6)-----6-------------|
d---------------------------------------------5-------------|
a--------x-------------x---0----0------x---0--------x-------|
E--0-----x------0------x---------------x------------x-------|

e--7------x--------------(7)-----------------------------7---7-----|
b--8----8-x---8----------(8)-------7--8--8g10---8-------(8)----10s-|
g-------9-x---9-------9--------------------(7)--7------------------|
d----------------(x)---------------7--7--------------9-------------|
a----------------(x)------x-----------------x------------x---------|
E--8--8---x-8-------------x---0----7--------x---7--------x---------|

e-------------5h-7p-5-----5-------8--8p--7-------5-------|
b--8----------5-----------5-------8--8-------------------|
g-------5-x------------5-------------------------------0-|
d-------5-x-----------------------0--0-------------------|
a--0--0---x-0-------------x--0----------------x-----x----|
E-------------------------x-------------------x-----x----|

e--2-------------2----------2--2--2--2--2--2--3--3g5--3-|
b--3-------------3----------2--2-----4------------------|
g-------------4-----------------------------------------|
d-------------------------------------------------------|
a-------x-----------x-------------x----------------x----|
E--3----x--3--------x--0----2-----x----------------x----|

e------5--x----------3-------7--8--7--5--5-----5g7-------|
b------------0-------0-------5--5--5-----0-------0--7g8--|
g------------0----0----------5-----------0--0------------|
d----------------------------0---------------------------|
a---------x----------x-------------x-------------x-------|
E--0------x--0-------x--0----------x-----3-------x-------|

e-----------7------------------------------------(7)--7-----
b--------x--8--------8-------7--8--8g10--8-------(8)----10s-
g-----9--x-----9--9----------7--7--------7------------------
d---------------------------------------------9-------------
a--------------------x----------------x-----------x---------
E--8-----x--8--------x--0----7--------x--7--------x---------

e-------------5h-7p-5-----5-------8--8p--7--------------------|
b--8----------5-----------5-------8--8-----------8----10------|
g-------5-x------------5-------------------------7--------(0)-|
d-------5-x-----------------------0--0------------------------|
a--0--0---x-0-------------x--0----------------x-----x---------|
E-------------------------x-------------------x-----x---------|

e--8--7---8---7----------7--7--------------------------------|
b--------(0)-----10--10-----0---------8------8------10-------|
g--------(0)------0---0---------------9------9---------------|
d------------------------------------------------------------|
a--8------x------10------x--------------x-------x-------x--0-|
E---------x--------------x-------8--8---x-8-----x-------x----|

e--8--7---8---7----------7-------7-----------------|
b--0-----(0)-----10--10--0-------8----8----0-----0-|
g--------(0)------0---0---------------9----0-----0-|
d------------------------------------------0-------|
a--8------x------10------x--------------x----------|
E---------x--------------x--0----8--9---x-----7----|

e--5--5--7--5g7-----------------------------------7--x--------|
b--5----------------10--10------10--10--8--10-----7--x--10p-8-|
g--5-----------------8---8-------7---7--7---------------------|
d--5---------------------7-------9-------------0-----x--------|
a--------x---------------x--------------x---------------------|
E--------x-------7-------x--0----0------x---------------------|

e--7-------------------12----12------12------12-------------|
b--8-----------------------------15--15---13-13-----(0)--15-|
g---------------------------------------------------(0)-----|
d-------x----(x)--------------------------------------------|
a-------x----(x)----x---------0-------x-------0--0---x------|
E--9----------------x-----------------x--------------x------|

e
b
g
d
a
 E 


Comments