Yeng

Artist: Jireh Lim (Filipino)
User: Darwin Solana
Duration: 130 seconds
Delay: 12 seconds
Chord names: Not defined
Abusive:
Comment:
hai. guys. heheh. may tab na po yan. thanks. :)

Yeng By: Jireh Lim

Tabbed By: dharzz darwin

Contact #: 09557839468

Facebook: Winrad Asauga Analos(rakkhas)

(click nyo lng ung kulay blue chords)
(para makita nyo ang chords pattern)

URL

Updated last time:
KOT72,
December 4, 2017 8:02 AM

Text


capo fret 4

intro: (tabliture) plucking
E|--0---------------------------------------|
B|------0-----4---0-----0---------0---------|
G|----1-----2---1-----2-----2---------2---2-|
D|--------2---------2-----2-----2---2-------|
A|------------------------------------------|
E|--0---------0---------2-----2---------2---|

E|--0----------------------------------------|
B|------0-----4---0-----0--------------------|
G|----2-----2---2-----2-----2--------2--4--2-|
D|--------2---------2-----1-----1----1--6--4-|
A|--0---------0---------2-----2--------------|
E|-------------------------------------------|

E|--0---------------------------------------|
B|------0-----4---0-----0---------0---------|
G|--1-1-----2---1-----2-----2---------2---2-|
D|--------2---------2-----2-----2---2-------|
A|------------------------------------------|
E|--0---------0---------2-----2---------2---|

E|--0----------------------------------------0-|
B|------0-----4---0-----0---------0----------0-|
G|----2-----2---2-----2-----2---------2------2-|
D|--------2---------2-----1-----1---1----1---1-|
A|--0---------0---------2-----2--------2-----2-|
E|---------------------------------------------|

chords note:
 Asus2/F#   -    B11no5
 E|--0--|       E|--0--|
 B|--0--|       B|--0--|
 G|--2--|       G|--2--|
 D|--2--|       D|--1--|
 A|--x--|       A|--2--|
 E|--2--|       E|-----|

stanza: (all chords with plucking)
  E                 Asus2/F# 
Ako'y umaamin na may pagtingin
  Asus2               B11no5 
Sa'yong pagkatao na di nagbabago
  E                 Asus2/F# 
Mapag kumbaba hindi katulad ng iba
  Asus2            B11no5 
Kilala ng marami ulo'y di lumalaki

  E                 Asus2/F# 
Mga katulad mo ang hinahangaan ko
  Asus2             B11no5 
Ang awit na ito ay alay ko sa'yo
  E                 Asus2/F# 
Sa dami ng 'yong pinagkaka abalahan
  Asus2             B11no5 
Marinig mo pa kaya ang nilalaman

Chorus:
           E        E/G# 
Ang boses mo ay kabigha-bighani
  Asus2                  B11no5 
Hindi mo man marinig ang awit ko saiyo
  E     E/G# 
Ipagsisigawan ko
  Asus2          B11no5 
Ako'y humahanga ng lubos saiyo

repeat intro:

  E               Asus2/F# 
Araw-araw kitang pinakikinggan
  Asus2             B11no5 
Sa ganda mo'y bagay ay gumagaan
  E                Asus2/F# 
Sa dinami-rami ng may gusto sa'yo
  Asus2             B11no5 
Marinig mo pa kaya ang awit na to

Chorus:
           E      E/G# 
Ang boses mo ay kabigha-bighani
  Asus2                  B11no5 
Hindi mo man marinig ang awit ko saiyo
  E   E/G# 
Ipagsisigawan ko
  Asus2            B11no5    E 
Ako'y humahanga ng lubos saiyo
 E/G# 
Ako'y nabighani
  Asus2                  B11no5 
Hindi mo man marinig ang awit ko saiyo
  E   E/G# 
Ipagsisigawan ko
  Asus2          B11no5 
Ako'y humahanga ng lubos saiyo

ending chords: (tabliture) plucking

E|--0---------------------------------------|
B|------0-----4---0-----0---------0---------|
G|----1-----2---1-----2-----2---------2---2-|
D|--------2---------2-----2-----2---2-------|
A|------------------------------------------|
E|--0---------0---------2-----2---------2---|

E|--0----------------------------------------|
B|------0-----4---0-----0--------------------|
G|----2-----2---2-----2-----2--------2--4--2-|
D|--------2---------2-----1-----1----1--6--4-|
A|--0---------0---------2-----2--------------|
E|-------------------------------------------|

E|--0---------------------------------------|
B|------0-----4---0-----0---------0---------|
G|--1-1-----2---1-----2-----2---------2---2-|
D|--------2---------2-----2-----2---2-------|
A|------------------------------------------|
E--0---------0---------2-----2---------2---|

E|--0-------------------------------------------0-|
B|------0-----4---0-----0-------------------------|
G|----2-----2---2-----2-----2--------2--4--2----1-|
D|--------2---------2-----1-----1----1--6--4----2-|
A|--0---------0---------2-----2-------------------|
E|----------------------------------------------0-|



Comments

July 20, 2016 2:55 PM
Asus2/F# = 002202
H7+9 в действительности B7#9 (H7#9) = x3212x
September 16, 2017 2:40 AM
Asus2/F# = 202200.
B7+9 = x21200

There Are Correct Chords
September 18, 2017 7:16 AM
With the chord "Asus2/F#" everything is correct, only the order of the strings is changed.
By the given tabulation "x21200" this chord is the chord "B11no5".
Source -> http://www.chorderator.com/?tuning=EADGBE&chordName=B11no5
December 3, 2017 4:35 AM
thanks this sharing this site :)
December 4, 2017 8:03 AM
H11no5 (B11no5) = 00212x