Your Guardian Angel

Artist: The Red Jumpsuit Apparatus (English)
User: Darwin Solana
Duration: 130 seconds
Delay: 12 seconds
Chord names: Not defined
Abusive:
Comment:
EMO Song. :D

URL

Updated last time:
Darwin Solana,
May 6, 2017 12:06 PM

Text

Your Guardian Angel by: The Red Jumpsuit Apparatus

tabbed by: Darwin Solana

contact #: 
0948 373 4979

facebook: Solana Darwin


Drop C Tuning
[Intro]

D|---------------------------------------------------------------------------------|
A|---------------------------------------------------------------------------------|
F|---------------------------------7-7-7-7-7---------------------------------7-5-4-|
C|-5-5-5-5-5-5h7-7-7-7-7-5-5-5-5-5-5-5-5-5-5-0-0-0-0-0-0h7-7-7-7-7-4-4-4-4-4-0-0-0-|
G|-5-5-5-5-5-5---5-5-5-5-5-5-5-5-5-5-5-5-5-5-0-0-0-0-0-0---0-0-0-0-0-0-0-0-0-0-0-0-|
C|-5-5-5-5-5-5---5-5-5-5-5-5-5-5-5-5-5-5-5-5-0-0-0-0-0-0---0-0-0-0-0-0-0-0-0-------|

D|--------------------------------------------------------------------------------------|
A|--------------------------------------------------------------------------------------|
F|-----------------------------------------------5-5-5-5-5-5-5-5-5-5--7-7-7-7-7-7-7-7-7-|
C|-2-2-2-2-2-2h4-4-4-4-4-4h5-5-5-5-5-5p4-4-4-4-4-5-5-5-5-5-5-5-5-5-5--7-7-7-7-7-7-7-7-7-|
G|-2-2-2-2-2-2---2-2-2-2-2---2-2-2-2-2---2-2-2-2-3-3-3-3-3-3-3-3-3-3--5-5-5-5-5-5-5-5-5-|
C|-2-2-2-2-2-2---2-2-2-2-2---2-2-2-2-2---2-2-2-2----------------------------------------|

(you can play the chords with "Drop C" tuning of your guitar)

chords pattern:
  G5      -    D5    -     E5     -    C5
D|-----|    D|-----|    D|-----|    D|-----|
A|-----|    A|-----|    A|-----|    A|-----|
F|-----|    F|-----|    F|-----|    F|--5--|
C|--5--|    C|--0--|    C|--2--|    C|--5--|
G|--5--|    G|--0--|    G|--2--|    G|--3--|
C|--5--|    C|--0--|    C|--2--|    C|-----|
[Verse]

 G5     D5        E5
When I see your smile
 C5                G5      D5     E5     C5
Tears run down my face I can't replace
 G5                              D5
And now that I'm stronger I've figured out
          E5                         C5
How this world turns cold and breaks through my soul
       G5         D5         E5              C5
And I know I'll find deep inside me I can be the one


[Chorus]

 G5            D5
I will never let you fall
 E5                     C5
I'll stand up with you forever
 G5                     D5
I'll be there for you through it all
 E5                 C5                G5
Even if saving you sends me to heaven

     D5        E5       C5
It's ok. It's ok. It's ok.
 G5
Seasons are changing
     D5
And waves are crashing
     E5                C5
And stars are falling all for us
 G5                    D5
Days grow longer and nights grow shorter
   E5                C5
I can show you I'll be the one

 G5            D5
I will never let you fall
 E5                     C5
I'll stand up with you forever
 G5                     D5
I'll be there for you through it all
 E5                 C5
Even if saving you sends me to heaven


[Verse]

     G5          D5          E5
Cuz you're my, you're my, my true love, my whole heart
 C5                       D5
Please don't throw that away
     G5        D5
Cuz I'm here for you
 E5
Please don't walk away,
 C5                     D5
Please tell me you'll stay, stay

 G5        D5       E5       C5        D5

 G5             D5
Use me as you will
          E5                 C5
Pull my strings just for a thrill
 G5                   D5
And I know I'll be ok
           E5                 C5
Though my skies are turning gray


[Chorus]

 G5            D5
I will never let you fall
 E5                     C5
I'll stand up with you forever
 G5                     D5
I'll be there for you through it all
 E5                  C5
Even if saving you sends me to heaven.
#

Comments

July 19, 2016 3:45 PM
Dadd11 = 33245x
July 20, 2016 11:09 AM
what is this chords?
July 20, 2016 8:47 PM
I do not know anymore. I wrote this comment for any song where this chord was inside, but now can not find this song.