You shook me all night long

Artist: AC/DC (English)
User: teresa oberti
Duration: 130 seconds
Delay: 12 seconds
Chord names: Not defined
Abusive:
Comment: -

URL

Uploaded:
September 21, 2016, 4:23 PM

Text

Parte 1:

   D4  D  D4     D 
E|------------------------------------------
B|-8-10-8-8---8-7---------------------------
G|-7-7------7-----7-------------------------
D|-0----------------0-----------------------
A|------------------------------------------
E|------------------------------------------


Parte 2:

  D 
E|------------------------------------------
B|-3----------------------------------------
G|-2---2---------2--------------------------
D|-0-3-0-3h4-0-3-0--------------------------
A|------------------------------------------
E|------------------------------------------


Primeira parte 2x:
 G  C  G4  C  G  D 
 G  D (2x)
 G  C  G4  C  G  D 

Refrão 2x:  G  C9  G/B 
            D  C9  G/B  G  C9  G/B 
            D  C9  G/B  G 


  G      C9    G/B 
E|---3-------3-----3------------------------
B|---3---------3-----3----------------------
G|---0--------------------------------------
D|-0-0--------------------------------------
A|-2-2-0-2-3-----2--------------------------
E|-3-3--------------------------------------


  D      C9    G/B 
E|---2-------3-----3------------------------
B|---3---------3-----3----------------------
G|-2-2--------------------------------------
D|-0-0--------------------------------------
A|-----0-2-3-----2--------------------------
E|------------------------------------------


Solo:
Parte 1:                           h.a     h.a

E|------3--------------------------------------------
B|--------3-6----------------------------------------
G|-5b7~-------6r5-3-------------------3-------3------
D|------------------5---5-5-3-----------5---5--------
A|--------------------5-------5-3-1-------5----------
E|----------------------------------3----------------


Parte 2:

E|----------------------------10---------------------
B|-----6-6------8-8---8-10b12----12r10-8-11b13-11-8-8
G|-5/7-----8/10-----9------------------------------9-
D|---------------------------------------------------
A|---------------------------------------------------
E|---------------------------------------------------


Parte 3:

E|--------15-----------------------------------------
B|-18b20~----15-18-------------17-15-------18------18
G|-----------------18r17-15----17-15-17b19----17b19--
D|--------------------------17-----------------------
A|---------------------------------------------------
E|---------------------------------------------------


E|---------------------------------------------------
B|-------------17-15----15---------------------------
G|-19r17-15----17-15----15---------------------------
D|----------17-------17------------------------------
A|---------------------------------------------------
E|---------------------------------------------------


Parte 4:

E|----18b20r19-18r17-15-17----15-------15------------
B|-15----------------------17----18b20~--17----------
G|-----------------------------------------19r17-15--
D|---------------------------------------------------
A|---------------------------------------------------
E|---------------------------------------------------


E|-------------15----15-15-18r17-15~-----------------
B|-------15h17----17---------------------------------
G|-17b19---------------------------------------------
D|---------------------------------------------------
A|---------------------------------------------------
E|---------------------------------------------------


Base do solo/final:
(1ª vez)  G  C9  G/B  D  C9  G/B  G 

(2ª vez)

        C9    G/B    D             C9    G/B      G 
E|--------3-----3-----2-2-2-2--------3-----3---|
B|----------3-----3---3-3-3-3----------3-----3-|
G|------------------2-2-2-2-2------------------|
D|------------------0-0-0-0-0------------------|
A|-0-2-3------2---------------0-2-3------2-----|
E|---------------------------------------------|

Comments

September 22, 2016, 8:22 AM
D4 = Dsus4 = 3320xx
G4 = Gsus4 = 330033