Now Is The Time (TAB)

Artist: Watchtower (English)
User: Darwin Solana
Duration: 130 seconds
Delay: 12 seconds
Chord names: Not defined
Abusive:
Comment:
Now Is The Time .. Tab

URL

Updated last time:
Darwin Solana,
May 9, 2017 6:45 AM

Text

Tabbed By: Darwin Aguasa Solana
(No Capo)
(Standard Tuning)

the sign (x) is dead string

Intro: 

E|----------------------------------|
B|------3-----3---------3-----3-----|
G|----------0---0-----------0-----0-|
D|----0---0-------0---2---2-----2---|
A|------------------3---------------|
E|--3-------------------------------|

E|----------------------------------|
B|------3-----3---------3-----3-----|
G|----------0---0-----------0-----0-|
D|----0---0-------0---2---2-----2---|
A|------------------3---------------|
E|--3-------------------------------|

    
Stanza:

E|---------------------------------|
B|-----3-----3---------3-----3-----|
G|---------0---0-----------0-----0-|
D|---0---0-------0---2---2-----2---|
A|-----------------3---------------|
E|-3-------------------------------|

E|---------------------------------|
B|-----3-----3---------3-----3-----|
G|---------0-----0---2-----2-----2-|
D|---2---2-----2---0-----0-----0---|
A|---------------------------------|
E|-0-------------------------------|


E|---------------------------------|
B|-----3-----3---------3-----3-----|
G|---------0---0-----------0-----0-|
D|---0---0-------0---2---2-----2---|
A|-----------------3---------------|
E|-3-------------------------------|

E|---------------------------------|
B|-----3-----3---------3-----3-----|
G|---------0-----0---2-----2-----2-|
D|---2---2-----2---0-----0-----0---|
A|---------------------------------|
E|-0-------------------------------|

E|---------------------------------|
B|-----3-----3---------3-----3-----|
G|---------0-----0---------0-----0-|
D|---2---2-----2-----2---2-----2---|
A|-----------------3---------------|
E|-0-------------------------------|

E|---------------------------------|
B|-----3-----3---------3-----3-----|
G|---------0-----0---2-----2-----2-|
D|---2---2-----2---0-----0-----0---|
A|---------------------------------|
E|-0-------------------------------|

Refrain:

E|---------------------3-3-3-3---2-|
B|-1-1-1-1---3-3-3-3---3-3-3-3---3-|
G|-2-2-2-2---2-2-2-2---0-0-0-0---2-|
D|-2-2-2-2---x-x-x-x---2-2-2-2---0-|
A|-0-0-0-0---2-2-2-2---3-3-3-3-----|
E|---------------------------------|

Chorus: (strumming)

E|-3-3-3-3---3-3-3-3---3-3-3-3---2-2-2-2-------------3-3-3-3---3---3-|
B|-3-3-3-3---3-3-3-3---3-3-3-3---3-3-3-3---3-3-3-3---3-3-3-3---3---2-|
G|-0-0-0-0---0-0-0-0---0-0-0-0---2-2-2-2---2-2-2-2---0-0-0-0---0---3-|
D|-2-2-2-2---2-2-2-2---0-0-0-0---0-0-0-0---x-x-x-x---2-2-2-2---2---0-|
A|-2-2-2-2---3-3-3-3---2-2-2-2-------------2-2-2-2---3-3-3-3---2-----|
E|-0-0-0-0-------------3-3-3-3---------------------------------0-----|

Back to intro then stanza then chorus

Comments