Hold Your Head Up

Artist: Argent (English)
User: Andrew Reed
Duration: 130 seconds
Delay: 12 seconds
Chord names: Not defined
Abusive:
Comment: -

URL

Uploaded:
June 4, 2017, 8:37 PM

Text

Artist: Argent
Song: Hold your head up (Single version)
Composers: Rod Argent & Chris White

Use moderate gain / distortion either through power amp or pedal. Lowered pickups may assist in getting the tone

 Dsus2   = xx0230    F6add4  = xx0566    G     = 320033
 D4      = xx0233    E4      = 022200    E7    = 020100
 D       = xx0232    E       = 022100    Cadd2 = x30010
D9sus4  = xx0553    D *     = xx0775    Amaj4 = x00220
D7sus4  = xx0533    C/D     = xx0553
D13sus2 = xx0557    A#/D    = xx0331
D7sus2  = xx0555    G#aug/D = xx0110

Alternative shapes for the chorus chords could be from:
    Dsus2 = x57755 to  F6add4 = xx0566
or: Dsus2 = xx0230 to  F6add4 = 100311
Any combination should work

The first few bars tabbed are a simulation of the keyboards and bass intro
before the guitar riff comes in

******************************************************************************* 

[Intro]
   (D7sus4)
e|---3-------------|-----------------|
B|---1-------------|-----------------|
G|---0-------------|-----------------|
D|---0-------------|-----------------|
A|-----------------|-----------------|
E|-----------------|-----------------|

  (Dsus2)
e|--0--0--0--------|--0--0--0--------|--0--0--0--------|--0--0--0--------|
B|--3--3--3--------|--3--3--3--------|--3--3--3--------|--3--3--3--------|
G|--2--2--2--------|--2--2--2--------|--2--2--2--------|--2--2--2--------|
D|--0--0--0--------|--0--0--0--------|--0--0--0--------|--0--0--0--------|
A|-----------0--3--|-----------0--3--|-----------0--3--|-----------0--3--|
E|-----------------|-----------------|-----------------|-----------------|


[Guitar riff]
    D4      D    D9sus4   D7sus4    D4     D  D7sus4  D13sus2  D7sus2
e|--3----3--2---|--3----3--3-----|--3---3--2----3------7--7--|---5----|
B|--3----3--3---|--5----5--3-----|--3---3--3----3------5--5--|---5----|
G|--2----2--2---|--5----5--5-----|--2---2--2----5------5--5--|---5----|
D|--0----0--0---|--0----0--0-----|--0---0--0----0------0--0--|---0----|
A|--------------|----------------|---------------------------|--------|
E|--------------|----------------|---------------------------|--------|

    D4      D    D9sus4   D7sus4    D4     D  D7sus4  D13sus2   D7sus2
e|--3----3--2---|--3----3--3-----|--3---3--2----3------7--7--|---5-------------|
B|--3----3--3---|--5----5--3-----|--3---3--3----3------5--5--|---5-------------|
G|--2----2--2---|--5----5--5-----|--2---2--2----5------5--5--|---5-----2-p0----|
D|--0----0--0---|--0----0--0-----|--0---0--0----0------0--0--|---0----------3--|
A|--------------|----------------|---------------------------|-----------------|
E|--------------|----------------|---------------------------|-----------------|


[Verse 1]
 D4  D            D9sus4  D7sus4              D4       D   D7sus4    D13sus2  D7sus2
     And if it's bad,         don't let it get you down, you--- can  make   it,
 D4  D            D9sus4  D7sus4              D4       D   D7sus4    D13sus2  D7sus2
     And if it hurts,        don't let them see you cry, you--- can  take   it!


[Chorus 1]
 Dsus2              F6add4    Dsus2              F6add4
Hold your head up, woman!    Hold your head up, woman!
              (High-----!)                 (High-----!)

 Dsus2              F6add4     E4             E 
Hold your head up, woman!    Hold your head high-----!
              (High-----!    Hold your head high-----!)


[Verse 2]
  Dsus2 
e|--0--0--0--------|--0--0--0--------|--0--0--0--------|--0--0--0--------|
B|--3--3--3--------|--3--3--3--------|--3--3--3--------|--3--3--3--------|
G|--2--2--2--------|--2--2--2--------|--2--2--2--------|--2--2--2--------|
D|--0--0--0--------|--0--0--0--------|--0--0--0--------|--0--0--0--------|
A|-----------0--3--|-----------0--3--|-----------0--3--|-----------0--3--|
E|-----------------|-----------------|-----------------|-----------------|

 D4  D            D9sus4  D7sus4              D4         D  D7sus4  D13sus2  D7sus2
     And if they stare,      just let them burn their eyes on you mov    - ing,
 D4  D            D9sus4  D7sus4              D4       D   D7sus4     D13sus2 D7sus2
     And if they shout,      don't let it change a thing that you're do   - ing!


[Chorus 2]
 Dsus2              F6add4    Dsus2              F6add4
Hold your head up, woman!    Hold your head up, woman!
              (High-----!)                 (High-----!)

 Dsus2              F6add4     E4             E 
Hold your head up, woman!    Hold your head high-----!
              (High-----!    Hold your head high-----!)

[Bridge]
  Dsus2 
e|--0--0--0--------|--0--0--0--------|--0--0--0--------|--0--0--0--------|
B|--3--3--3--------|--3--3--3--------|--3--3--3--------|--3--3--3--------|
G|--2--2--2--------|--2--2--2--------|--2--2--2--------|--2--2--2--------|
D|--0--0--0--------|--0--0--0--------|--0--0--0--------|--0--0--0--------|
A|-----------0--3--|-----------0--3--|-----------0--3--|-----------0--3--|
E|-----------------|-----------------|-----------------|-----------------|

  Dsus2 
  Hold your head up!         Hold your head up!
e|--0---------0--0---------|--0----------0--0---------|
B|--3---------3--3---------|--3----------3--3---------|
G|--2---------2--2---------|--2----------2--2---------|
D|--0---------0--0---------|--0----------0--0---------|
A|-------------------0--3--|--------------------0--3--|
E|-------------------------|--------------------------|

  Dsus2 
  Hold your head up!         Hold your head up!
e|--0---------0--0---------|--0----------0--0---------|
B|--3---------3--3---------|--3----------3--3---------|
G|--2---------2--2---------|--2----------2--2---------|
D|--0---------0--0---------|--0----------0--0---------|
A|-------------------0--3--|--------------------0--3--|
E|-------------------------|--------------------------|

 D *                C/D                 A#/D                G#aug/D 
Hold your head up!  Hold your head up!  Hold your head up!  Hold your head up!
  G                 E7                  Cadd2               Amaj4         
Hold your head up!  Hold your head up!  Hold your head up!  Hold your head up!
F6add4
Hold your head up!


[Chorus 3]
 Dsus2              F6add4    Dsus2              F6add4
Hold your head up, woman!    Hold your head up, woman!
              (High-----!)                 (High-----!)

 Dsus2              F6add4     E4             E 
Hold your head up, woman!    Hold your head high-----!
              (High-----!    Hold your head high-----!)


[Verse 3]
 D4  D            D9sus4  D7sus4              D4         D  D7sus4  D13sus2  D7sus2
     And if they stare,      just let them burn their eyes on you  mov    - ing,
 D4  D            D9sus4  D7sus4              D4       D   D7sus4    D13sus2 D7sus2
     And if they shout,      don't let it change a thing that you're do   - ing!


[Chorus 4]
 Dsus2              F6add4        Dsus2              F6add4
Hold your head up, woman!        Hold your head up, woman!
               (High-----!)                    (High-----!)

 Dsus2              F6add4        Dsus2              F6add4
Hold your head up, woman!        Hold your head up, woman!
               (High-----!)                    (High-----!)

Youtube Link - https://youtu.be/9ApXhdT2P1g


Comments