Maging Sino ka man

Artist: Rey Valera (Filipino)
User: cammille coffee
Duration: 130 seconds
Delay: 12 seconds
Chord names: Not defined
Abusive:
Comment: -

URL

Uploaded:
October 12, 2017 8:06 AM

Text

[Verse 1]

  G                        C9
Ang pag-ibig ay sadyang ganyan
   Bm                    Em
tiwala sa isa't isa'y kailangan
  C9                       Bm
dati mong pag-ibig wala akong pakialam
   C9                        D
basta't mahal kita kailan pa man


[Verse 2]

  G                      C9
wag kang mag-isip ng ano pa man
   Bm                     Em
mga paliwanag mo'y 'di na kailangan
  C9                     Bm
at kahit ano pa ang iyong nakaraan
  C9                       D
mamahalin kita maging sino ka man


[Chorus]

  C9    Bm    C9            Bm
Mahal kita, pagkat mahal kita
  C9    Bm    C9          Bm
iniisip nila ay hindi mahalaga
    C9        D     G
mahal kita maging sino ka man


[Adlib]

   Dm    Dm7       Bb      C7             Fsus         F
e|-10-13-|-----------------12-13-15----------18-17-17-15-17--|
B|---------10p8-6-8-10-------------13-|-15-13----------------|
G|--------------------10-|-----------------------------------|  part 1
D|-----------------------------------------------------------|
A|-----------------------------------------------------------|
E|-----------------------------------------------------------|

   Dm    Dm7       Bb     A7        Dm        Bbm     C7sus C7
e|-10-13-|-----------------9-10-12-13--12-13-17-15-15--|
B|---------10p8-6-8-10---------------15----------------|
G|--------------------10-|-----------------------------|  part 2
D|-----------------------------------------------------|
A|-----------------------------------------------------|
E|-----------------------------------------------------|


[Verse 3] do Verse 2 chords

  G                        C9
Mali man ang ikaw ay ibigin ko
 Bm                      Em
ako'y isang bulag na umiibig sa'yo
 C9                   Bm
at kahit ano pa ang iyong nakaraan
 C9          D          G
mamahalin kita maging sino ka man

Comments