Titibo Tibo (With TAB)

Artist: Moira Dela Torre (Filipino)
User: Darwin Solana
Duration: 130 seconds
Delay: 12 seconds
Chord names: Not defined
Abusive:
Comment:
paki add ako sa fb or follow narin thankz :)

URL

Updated last time:
Darwin Solana,
December 11, 2017 6:33 AM

Text

Titibo Tibo - Moira Dela Torre (TAB)
Tabbed by: Darwin Aguasa Solana
Cp #:0948 373 4979
Facebook: Darwin Aguasa Solana

No Capo (Use Auto Rotate your Device)

Intro:
E|-10----------10----10-13-13----------------10----------10----13-13/15-13-10----------------10----|
B|----13-11-13----13-------------11----11-------13-11-13----13----------------13-11----11-13-------|
G|-------------10----------10-10----11----11-------------12----------------------13-13----------13-|
D|-------------------------------------------------------------------------------------------------|
A|-------------------------------------------------------------------------------------------------|
E|-------------------------------------------------------------------------------------------------|

E|----------------------------------------------------10-13----|
B|-11-13-13/14-13-11/13-11-11-13-13/14-13-11/13-11-13----------|
G|-------12-------------12-------11-------------11----10----10-|
D|-------------------------------------------------------------|
A|-------------------------------------------------------------|
E|-------------------------------------------------------------|

(mabilis na part)
E|13-12-11-10----------------------17-18-19-20-|
B|------------13-12-11-10----------------------|
G|------------------------12-10----------------|
D|---------------------------------------------|
A|---------------------------------------------|
E|---------------------------------------------|

Chords pattern for Stanza

 A# - D - Gm - A#7 - Eb - A# - Cm - F 

Verse 1]
 A#                   D 
Elementary pa lang napapansin na nila
 Gm                          A#7 
Mga gawi kong parang hindi pambabae e kasi
 Eb                       A# .            Gm 
Imbes na Chinese garter laruan ko ay teks at jolens
 Cm                                F 
Tapos ka-jamming ko lagi noon mga sigang lalaki sa amin

Interlude:
E|-13-12-11-10-------------------10-11-12-13-|
B|-------------13-12-11-10-------------------|
G|-------------------------12-10-------------|
D|-------------------------------------------|
A|-------------------------------------------|
E|-------------------------------------------|

 A#                           D 
Nung ako’y mag-high school ay napabarkadasa mga bi
 Gm                   A#7  
Curious na babae na ang hanap din ay babae
 Eb .                A#        Gm 
Sa halip na makeup kit bitbit ko ay gitara
 Cm .       
Tapos pormahan ko lagi ay long sleeves na
 F 
tshirt at faded na lonta

[Pre-Chorus]
(chords pattern:  Gm   Dm   Eb   F   Gm7   Cm  )

 Gm                        Dm 
Pero noong nakilala kita nagbagong bigla
                   Eb 
ang aking timpla natuto ako na magparebond
     F                   D/F# 
at mag-ahit ng kilay at least once a month
 Gm 
Hindi ko alam kung anong meron ka na sa
 Dm 
akin ay nagpalambot nang bigla
         Eb                          Cm 
Sinong mag-aakalang lalake pala ang bibihag
               F 
sa tulad kong tigreng gala
[Chorus]
same pattern chords stanza
 A# .              D 
Kahit ako’y titibo-tibo..
            Gm      A#7 
Puso ko ay titibok-tibok parin sa’yo
 Eb                           Ebm/F#/ 
Isang halik mo lamang at ako ay tinatablan
       A#                  Cm 
At ang aking pagkababae ay nabubuhayan
 Eb .                    Ebm 
Na para bang bulaklak na namumukadkad
     A# (pause).              A# 
Dahil alaga mo sa dilig at katamtamang
             Eb .     
Sikat ng araw-araw mong pag-ibig
   Ebm/F#   F 
Sa’king buhay nagpapasarap

[Instrumental]
intro TAB

[Verse 2] transpose in A# to C chords same pattern
 C                       E 
Nung tayo’y nag-college ay saka ko lamang
      Am      
binigay at ang matamis na oo
     C7  
Sampung buwan mong Trinabaho
 F                   C             Am 
Sa halip na tsokolate at tipikal na mga diskarte
 D .                             G 
Nabihag mo ko sa mga tula at sa mga kanta mong pabebe

[Pre-Chorus]
 Am                       Em 
Kaya nga noong makilala kita alam mo na agad na
mayroong himala
 F .                       G 
Natuto akong magtakong at napadalas ang
             E/G# 
pagsuot ng bestidang pula
      Am .               E 
Pero di mo naman inasam na ako ay
                      F 
magbabagong tuluyan para patunayang
                   Dm 
Walang matigas na tinapay sa mainit na
              G 
kape ng iyong pagmamahal

[Chorus]
           A# .      D 
Kahit ako’y titibo-tibo...
            Gm .         A#7 
Puso ko ay titibok-tibok parin sa’yo
      Eb .                    Ebm/F# 
Isang halik mo lamang at ako ay tinatablan
        A# .               Cm 
At ang aking pagkababae ay nabubuhayan
         Eb .             Ebm 
Na para bang bulaklak na namumukadkad
      A# (pause)
Dahil alaga mo sa dilig at katamtamang
  A# .    Eb .     
Sikat ng araw-araw mong pag-ibig
 Ebm/F#/ .   F 
Sa’king buhay nagpapasarap.



Comments