Лошадь белая

Artist: Аквариум (Russian)
User: Андрей Мануев
Duration: 130 seconds
Delay: 12 seconds
Chord names: Not defined
Abusive:
Comment: -

URL

Uploaded:
January 12, 2018 4:02 PM

Text

Каподастр на 4-м ладу 
 
Вступление: 
  Em         G    C  D/f#          
E-3-2-0h2-0---------------
H----------3-3--0-1-3-----
G--------------0------2--0
D-2-----------0----2----0-
A-----------------3----0--
E------------3--------2---

  Em         G    C   G D/f#
E-3-2-0h2-0---------------
H----------3-3--0-1-3-3---
G--------------0---------2
D-2-----------0----2-0-0--
A-----------------3-------
E------------3--------3--2

  Em         G    C  D/f#
E-3-2-0h2-0------------
H----------3-3--0-1-3--
G--------------0------2
D-2-----------0----2-0-
A-----------------3----
E------------3--------2

      G  C   D/f#  G
E--------3------------------3-
H-------3--------------0h1----
G-0-2-0----0-2-0-2----0----0--
D---------2----------0----0---
A--------3----------2---------
E---2-3------2---2-0----------

 Em         G  C     D/f#
Лошадь белая на траве
 Em        G    C D/f#
Далеко ушла в поле
 Em            G    C    D/f# D/f#
Дома упряжь вся в серебре
       G     C  D/f# G
А ей нужно лишь воли.

 Em              G     C     D/f#
Конюх сбился с ног - да что с тобой?
 Em             G    C D/f#
Целый день звонит, пишет
 Em       G    C    D/f# D/f#
А она трясет гривой 
       G     C  D/f# G
И как будто б не слышит.

Проигрыш: 
  C     C  G    G  G   G        D/f# D/f# 
E-0-2-3-2-0---0-3--7-3-10-7-7-5-3-2-7-2
H----------3-3-------------------------
G--------------------------------------
D--------------------------------------

  C     C      G   Em Am             C   D/f#
E-0-2-3-5-3-2-0---0------------------0------
H--------------3-3-0--1-0-1-0-1-0-0-3-3-1-0-
G------------------------------------------2
D-------------------------------------------

 Em          G     C     D/f#
Твёрдая земля да долгий путь
 Em     G    C D/f#
Из огня в полымя
 Em       G    C    D/f# D/f#
Много кто хотел её вернуть
       G     C  D/f# G
Ни один не знал имя.

Заключение: 
  Em         G    C  D/f#          
E-3-2-0h2-0---------------
H----------3-3--0-1-3-----
G--------------0------2--0
D-2-----------0----2----0-
A-----------------3----0--
E------------3--------2---
  Em         G    C   G D/f#
E-3-2-0h2-0---------------
H----------3-3--0-1-3-3---
G--------------0---------2
D-2-----------0----2-0-0--
A-----------------3-------
E------------3--------3--2
  Em         G    C  D/f#
E-3-2-0h2-0------------
H----------3-3--0-1-3--
G--------------0------2
D-2-----------0----2-0-
A-----------------3----
E------------3--------2
      G  C   D/f#  G
E--------3---------3-
H-------3----------0-
G-0-2-0----0-2-0-2-0-
D---------2--------0-
A--------3---------2-
E---2-3------2---2-3-

Comments