СТРЕЛА

Artist: 5’nizza (Russian)
User: 777Donchik
Duration: 130 seconds
Delay: 12 seconds
Chord names: Not defined
Abusive:
Comment: -

URL

Uploaded:
July 17, 2014, 10:46 PM

Text

Вступление (2 раза):

     Dm                         Dm7/C         
e|-----------1--------1-----|--------------------|
H|--------3-----------------|--------------------|
G|-----2-----------2-----2--|--------------------|
D|--0-----------------------|--------------------|
A|--------------------------|--3-----3-----3-3---|
E|--------------------------|--------------------|

    G7/B           G6/B        B6-5          A7
|-----------1--------------|--------------------|
|--------3--------3-----3--|--------------------|
|-----0--------------0-----|--------------------|
|--------------------------|--------------------|
|--2-----------------------|--1-----1-----1-0---|
|--------------------------|--------------------|

         Dm               Dm7/C
Моя стрела опоздала, подарил тебе дождь,
     G7/B    G6/B       B6-5            A7
Прости... Мне бы подрасти, боюсь сойти на
Ум. Да, я снова на краю, время отдаю
You... Не хватает пустоты, ты.
Все, что исчезло вдруг вокруг, только звук упавших
Век, дверь и стук, снег, разбег.
Лед уйдет, я войду из пустоты,
Это ты, просто ты, ты была всегда!

Проигрыш = вступление

Моя волна ожидания полна, моя вина,
Глубина... Мокрая стена передо мною.
Ночь, но она не сможет мне помочь,
Слова... Кругом голова уходит прочь.
То, о чем не нужно знать ни тебе не мне,
Вне нас миллионы глаз, миллионы фраз...
Пусть нам осталась грусть, но она одна,  
Бездна!                                  

Проигрыш

Моя стрела...

Comments