Город золотой

Artist: Аквариум (Russian)
User: Anonymous
Duration: 130 seconds
Delay: 8 seconds
Chord names: Not defined
Abusive:
Comment: -

URL

Updated last time:
KOT72,
July 13, 2016 12:59 PM

Text

 Am       ( E )( Am )    E        Am 
Под небом голубым есть город золотой
      Dm     ( Dm6 )  ( F7 )       E 
С прозрачными воротами и яркою звездой.
    Am ( E )( Am )       E          Am  A 
А в городе том сад, все травы да цветы,
  Dm       ( Dm6 )      E          Am 
Гуляют там животные невиданной красы.

   A7             Dm
Одно – как желтый огнегривый лев,
    G           C
Другое – вол исполненных очей.
   Dm                  F  E
С ними золотой орел небесный,
 Dm                        F E Am
Чей так светел взор незабываемый.

 Am       ( E )( Am )    E      Am 
А в небе голубом горит одна звезда.
      Dm     ( Dm6 )  ( F7 )       E 
Она твоя, о ангел мой, она твоя всегда.
    Am ( E )( Am )       E          Am  A 
Кто любит тот любим, кто светел – тот и свят.
  Dm       ( Dm6 )      E          Am 
Пускай ведет звезда тебя дорогой в дивный сад.

   A7             Dm
Тебя там встретит огнегривый лев
    G          C
И синий вол исполненных очей.
   Dm                  F  E
С ними золотой орел небесный,
 Dm                        F E Am
Чей так светел взор незабываемый.
Fill 1
E|----------------|--0------------0|--1-0----------|1-0--------|
B|--1-0-------01--|----3-1-0-1-13--|------3-1-0-1-3|----3-1-3-0|
G|------2-1-2----2|----------------|2--------------|-----------|
D|2---------------|2---------------|--0------------|-----------|
A|--0-------0-----|--0-------0-----|---------------|-----------|
E|----------------|----------------|---------------|--0-------0|

E|----------------|--0------------0|--1-0----------|1-0--------|
B|--1-0-------01--|----3-1-0-1-13--|------3-1-0-1-3|----3-0-1--|
G|------2-1-2----2|----------------|2--------------|----------2|
D|2---------------|2---------------|--0------------|-----------|
A|--0-------0-----|--0-------0-----|---------------|----------0|
E|----------------|----------------|---------------|--0--------|

Fill 2
E|-5-5-----3-3-1-0-1-5|-3-----1-1-0---0-3|---0---5-10-8-7-5-5-4|
B|-------2------------|-----0-------4----|-3---6---------------|
G|-----2--------------|---0--------------|---------------------|
D|-----------0-------0|------------------|-0-------------------|
A|---4----------------|---------3--------|---------------------|
E|--------------------|-3----------------|------------------0--|

E|---0---5-10-8-7-5-5-4-|---5---|
B|-3---6----------------|-------|
G|----------------------|-------|
D|-0--------------------|-------|
A|----------------------|---0---|
E|------------------0---|-------|



Comments

June 1, 2014 2:41 PM
"E7" ближе к оргиналу, чем "E"