Last added comments:
ОГРОМНАЯ просьба! Не забывайте редактировать аккорды, для корректного их отображения в приложении.
Строка с аккордами начинается с ">"
Аккорды в тексте выделяются: "Мне <Hm> больно ви <G> деть белый <A> свет"
Чуток отредактировал =) Только в лучшую сторону...
April 27, 2014 8:04 PM
E||-----------7--|4/5-------------|---------------|-----------|
H||-----5-7-8---|----------8p7h|-8-------8p7-|------7----|
G||---4----------|----------------|---------------|-8---------|
e|-------12-14--15-|---14-15---17--|-19-------14p12-|-11--------||
h|----12-------------|-------------------|--------------------|------------||
g|--------------------|-------------------|--------------------|------------||

Проигрыш:
E||-----------7--|4/5-------------|------------------|------------|
H||-----5-7-8---|----------8p7h|-8--7--5-7--5---|------------|
G||---4----------|----------------|-------------------|-8----4----|
Простой перебор: Б-3-2-1-2-3
Вальсовый щипок: Б-3+2+1−3+2+1 (3,2,1 струны дергаются одновременно)
Проигрыш: играется только на первой струне,
ЛАДЫ: 7 6 5 4 3 0

источник: http://guitarlesson.ru/butusov/krylya.html
April 13, 2014 5:51 PM
Бой: ˇ v ̭ ˇ v

ˇ - вниз по басовым 6-5-4 струнам
v - вниз по струнам 3-2-1
̭ - вверх по струнам 1-2-3
Бой: ↓↓↑↑↓↑
April 13, 2014 9:25 AM
Бой: ↓↓↑↑↓↑
April 13, 2014 9:19 AM
Бой: ↓ ↑↓↑↓↑
Бой: ↓↓↑