Seemann

Artist: Rammstein (Deutsch)
User: Anonymous
Duration: 160 seconds
Delay: 15 seconds
Chord names: Not defined
Abusive:
Comment:
A G#m
--------------------- --------------------
--2----0------------- --------------------
-------------2----1-- --------------------
-2-2--2--2--2-2--2-2- --4----4----6----6--
0----0-----0----0---- -6-6--6-6--6-6--6-6-
--------------------- 4----4----4----4----

F#m C#m
-------------------- --------------------
-------------------- --------------------
--2----------------- --6----5----6----6--
-------6----4----2-- -6-6--6-6--6-6--6-6-
-4-4--4-4--4-4--4-4- 4----4----4----4----
2----2----2----2---- --------------------

URL

Updated last time:
Alexander Suslov,
July 13, 2014, 5:12 PM

Text

  A            G#m
Komm in mein Boot
       F#m
ein Sturm kommt auf
              C#m
und es wird Nacht

  A            G#m
Wo willst du hin
     F#m
so ganz allein
              C#m
treibst du davon

  A            G#m
Wer halt deine Hand
      F#m
wenn es dich
             C#m
nach unten zieht

Wo willst du hin
so uferlos
die kalte See

Komm in mein Boot
der Herbstwind halt
die Segel straff

CHORUS:
        A                     G#m
Jetzt stehst du da an der Laterne
      F#m        C#m
Mit Tranen im Gesicht
      A                       G#m
Das Tageslicht fallt auf die Seite
      F#m                        C#m
Der Herbstwind fegt die Strasse leer

         A                    G#m
Jetzt stehst du da an der Laterne
       F#m         C#m
Hast Tranen im Gesicht
       A                      G#m
Das Abendlicht verjagt die Schatten
      F#m                          C#m
Die Zeit steht still und es wird Herbst

Komm in mein Boot
die Sehnsucht wird
der Steuermann

Komm in mein Boot
der beste Seemann
war doch ich

CHORUS:
Jetzt stehst du da an der Laterne
Hast Tranen im Gesicht
Das Feuer nimmst du von der Kerze
Die Zeit steht still und es wird Herbst

Sie sprachen nur von deiner Mutter
So gnadenlos ist nur die Nacht
Am Ende bleib ich doch alleine
Die Zeit steht still und mir ist kalt
                        ...kalt...kalt..kalt...


Comments