Украла

Artist: Быханов Сад (Русский)
User: Рулон Обоев
Duration: 130 seconds
Delay: 12 seconds
Chord names: Not defined
Abusive:
Comment: -

URL

Uploaded:
March 14, 2020, 6:12 PM

Text

capo on 5th fret
 Dm   C   A# (x4)

G|-------0-------0--2-0-------0-------0--2-0----
D|-------------------------------------------2-0
A|-0-2-0---0-2-0--------0-2-0---0-2-0-----------

 C5        A5              C5 
   Словно вор попал в мой дом
   A5               F5 
Но самое страшное в том,
    C5            A#5   F5 
Что его впустил я сам

И все мои мысли, и все мои чувства, всё без остатка бери!
Они стоят намного дороже
Дешёвой любви!

e|-------0--------------------0------------0----
B|---------------1--3-1---------------1--3---3-1
G|-------0-------0------------0-------0---------
D|----------------------------------------------
A|-0-2-0---0-2-0--------0-2-0---0-2-0-----------

Знаешь, в последнее время происходит что-то странное - я как будто стал меньше улыбаться. Нет-нет, ничего не случилось, правда... В целом, все хорошо. Просто чувствую, что что-то не так со мной, словно все вокруг каким-то тусклым стало и бестолковым. У тебя такого нет?

А еще я заметил, что все те вещи, которые хоть как-то приносили мне радость, лишь приводят к обратному. Я начинаю злиться и сам не понимаю на что или на кого. Я пытаюсь не загоняться по мелочам, пытаюсь как-то разобраться в себе, что-то поменять в своей жизни. Я даже начал ложиться спать по расписанию и правильно питаться, правда все еще не понимаю, как это может хоть кому-то помочь. Я уже вообще мало что понимаю, мне кажется, что "я" и не "я" вовсе, словно кто-то украл у меня часть меня же самого.

И все мои мысли, и все мои чувства, не думай, просто бери!
А потом обернись на прощанье,
И прочь уходи! (x2)

Comments