Го до ABB'ы?

Artist: Быханов Сад (Русский)
User: Рулон Обоев
Duration: 130 seconds
Delay: 12 seconds
Chord names: Not defined
Abusive:
Comment: -

URL

Uploaded:
March 19, 2020, 9:08 PM

Text

part1
e|-----6-7-6-7-6-6→4→2----------6-7-6-7-7→9-2-----
E|-0-0-----------------4-2--0-0---------------4-2-

 E5   G#5   F#5 

part2
E|-0-2
same time
B|-4-5-4-------------4-5-4---------7
G|-------4-3-4-6-4-4-------4-3-4-6--

part1 repeat

 B5   C#5   B5   C#5   G#5   F#5   E5 

part3
B|-------4------------------------
G|-----4-------4---------4-----4--
D|---------------4-----4---------4
A|--------------------------------
E|-2-4-----4-2-----2-4-----4-2----

e|-----7-6-----------0--------
B|---------7-0-7-------4-0-2-4
E|-2-4-----------4-2----------

Comments