Иду по Введенской

Artist: Рука дочери (Русский)
User: Рулон Обоев
Duration: 130 seconds
Delay: 12 seconds
Chord names: Not defined
Abusive:
Comment: -

URL

Uploaded:
April 23, 2020, 6:31 PM

Text

B|-----9----------
G|---8---8--------
D|---------6------
A|-7---------6-6-7

 Emaj7/G#   E7   Emaj7/G#   E7 

 E3   E2   Emaj7/G#   E7 

 E/G# 
человек, уходящий
нежный яд-заботливый взгляд
человек, который плачет
щиты в ряд-в живот снаряд

 Emaj7/G#   E7 
 Emaj7/G#     E7 
человек-ложь
 E3 
  человек-ров
        E2 
человек-маг
        E1 
человек-раб
        Emaj7/G#   E7 
человек-бог

 B5   A5   E5 
 B5   C#5   E5 
 B5   A5   E5 
 A5   B5   C#5   E5 

 A5   G#5   F#5   G#5 
 A5   B5   E5 

идешь быстро
смотришь вниз
роятся отрывки
реприза:
эмоциональный криз
классический риф
        Emaj7/G#   E7 
человек-смысл

человек-ложь
человек-ров
человек-маг
человек-раб
человек-бог

B|-9-7-5--5-7-9-7-5---5-7-7p-7-5--5-7-9-9-7---5
G|-------6----------4-----------------------6

e|-------------------------------7-4-2-0---0
B|-9-7-5--5-7-9-7-5---5-7-7p-7-5---------2--
G|-------6----------4-----------------------

e|-9-12-14--14--14-12-9-12
 Emaj7/G# 

Emaj7/G#: 0768--
E7: 0767--
E3: 00799-
E2: 00699-
E/G#: 0769--
E1: 006997

Comments