С утра до вечера

Artist: Быханов Сад (Русский)
User: Рулон Обоев
Duration: 130 seconds
Delay: 12 seconds
Chord names: Not defined
Abusive:
Comment: -

URL

Uploaded:
May 5, 2020, 6:27 PM

Text

e|-----0--…------0--         -----------
B|-------0…--------0         -----------
G|---1----…----1----         ---1-2-----
D|--------…---------  x2 then-----------
A|-4------…-2-------         -----------
E|--------…---------         -4-----2--0

 A   F#m   E 

e|-------0-------------0------------------------------
B|-----0---0---0-----0---0---0------------------------
G|---1-------1-----1-------1-------1-2-1-------1-2-1--
D|-------------------------------2-------2---2-------2
A|-4-------------2-------------0-----------0----------

e|-------0-------------0--------------0-------------2-0----
B|-----0---0---0-----2---2---2------4---4---4-----0-----0--
G|---1-------1-----1-------1------1-------1-----1---------1
D|---------------1--------------2-------------4------------
A|-4-------------------------------------------------------

 A   F#m 

 A   F#m   E   A   E   F#m 

E|-2-4-5

there is no lyrics in this song

Comments