December

Artist: Collective Soul (English)
User: dmitri1972
Duration: 130 seconds
Delay: 12 seconds
Chord names: Default
Abusive:
Comment: -

URL

Uploaded:
April 4, 2021, 2:17 PM

Text

 G             F             C 
Why drink the water from my hand?
 Bb                       G  F C Bb
Contagious as you think I am
 G              F             C 
Just tilt my sun towards your domain.
 Bb                    G    F C Bb
Your cup runneth over again.
 G     
Don't scream about
 F
Don't think aloud
 C                  Bb
Turn your head now baby 
            G
Just spit me out

Don't worry about
Don't speak of doubt
Turn your head now baby
Just spit me out

Why follow me to higher ground?
Lost as you swear I am.
Don't throw away your basic needs,
Ambiance and vanity.

Don't scream about
Don't think aloud
Turn your head now baby 
Just spit me out
Don't worry about
Don't speak of doubt
Turn your head now baby
Just spit me out

Yeah baby just spit me out
Yeah baby just spit me out
Yeah baby just spit me out
Yeah baby just spit me out
Yeah baby just spit me out

December promise you gave unto me
December whispers of treachery
December clouds are now covering me
December songs no longer I sing

I've got soul but I'm not a soldier
I've got soul but I'm not a soldier
I've got soul but I'm not a soldier
I've got soul but I'm not a soldier

main riff
  G                F                
E------------3-----------------3----|
B------3---3---3---------3---3---3--|
D----0---0-------0-----0---0-------0|
G-----------------------------------|
A-----------------------------------|
E--3----------------1---------------|
    C                 Bb
e|-------------3-----------------------|
B|-------3---3---3---------3-----------|
G|-----0---0-------0-----0---0---0---0-|
D|-------------------------------------|
A|--3-----------------1--------1---2---|
E|-------------------------------------|

Comments